Lexxnet.RU

Локальные компьютерные сети
Тонкая настройка компьютера
Автоматизация производства
Волгоградский портал компьютерных сетей
Локальные сети и их проектирование
Создание беспроводных сетей
Настройка компьютера
Автоматизация учета

Главная Новости Объявления Изюминка Каталог ссылок Карта сайта
Настройка сети Бухгалтерские и юридические услугиNEW! Скачать песни

Скачать мангу с этого сайта можно здесь Сдача отчетности в ФНС, ПФР, ФСС из 1С напрямую через 1С - Отчетность...<<<







Курс валют ЦБ
Доллар - 64.3352
Евро - 72.2291
19.06.2019

Тексты песен

ПилОт

100 000 номеров   $100   7 часов утра   Dead moroz  
Белый снег   Братишка   Будильник   Весна в метро  
Вифлием   Война   Волк   В подвенечном  
Голова-фонарь   Город   Горько   Два ангела  
Дверь в темную комнату   Двор   Девочка весна   Дело к войне  
Депрессивная зима   Джаз   Дом на реке   Ершалаим  
Ждите солнца!   Желтый дом   Зима в муммидоле   Игрушки  
Индейская   Каникулы маленькой панды   Кеды со звездами   Когда ты вернёшься...  
Кошка   Лимита   Мама   Надоело всё  
На чёрный день   Небеса   Небо   Нет дела до всех  
Осеннее пора   О счастливом детстве   Пешком по шпалам   Питер  
По мостовой   По разбитым судьбам   Про гитару   Про кота  
Рок-н-ролл   Ром   Сибирь   Снайпер  
Со мной   Сорок восемь   Стаи (о нехороших людях)   Сумасшедший  
Сюрприз   Тень   Тюрьма   Утро накажет  
Химия   Художник   Хуй тебе!   Цветные стекла  
Цыганщина   Шнурок  

Со мной

		Со Мной

!		1-й вариант соло
		E||--5--7--8--12----13--10----|--5--7--8--10----12--8----||
		B||---------------------------|--------------------------||
		G||---------------------------|--------------------------||
		D||---------------------------|--------------------------||
		A||---------------------------|--------------------------||
		E||---------------------------|--------------------------||

!		2-й вариант соло
		E||-------------------------|------------------------||
		B||-------------------------|------------------------||
		G||--2--4--5--9----10--7----|--2--4--5--7----9--5----||
		D||-------------------------|------------------------||
		A||-------------------------|------------------------||
		E||-------------------------|------------------------||

!		3-й вариант соло
		E||-------------------------|--5--7--8--10----12--8----||
		B||-------------------------|--------------------------||
		G||--2--4--5--9----10--7----|--------------------------||
		D||-------------------------|--------------------------||
		A||-------------------------|--------------------------||
		E||-------------------------|--------------------------||

>		Am                F              Am
(1)		Улыбнись со мной снегам, дождю и ветру,
>		Am             C           F
		Полюби со мной завьюженный февраль,
>		Dm              E         Am
		Полети со мной в скучающее небо,
>		Dm           F         E
		Ощути во мне мерцающую даль.
		Пожелай со мной несбыточных желаний,
		Погрусти со мной над пустотою дня,
		Подожди со мной ласкающего солнца,
		Ощути во мне сияние огня.
>		Dm       Am       Dm       Am
		Со мной. Со мной. Со мной. Со мной.

(2)		Постучи со мной в незапертые двери,
		Перейди со мной за болевой порог,
		Пошути со мной над безграничной верой,
		Ощути во мне извечный зов дорог.
		Поиграй со мной в судьбу, любовь и верность,
		Погоси со мной звучание шагов,
		Почитай со мной придания про вечность,
		Ощути во мне начало всех погод.
		Со мной...

С песней по жизни всегда веселей!

Ждем Ваших песен на адрес admin@lexxnet.ru

Каталог

Алексин
Афганские песни
Блатные песни
Кино
Наутилус Помпилиус
ПилОт
Серьга
ЧайФ
Тальков

Полезное


Яндекс цитирования